0
SECTION
2
HEADER
9
$INSUNITS
70
4
9
$ACADVER
1
AC1014
9
$HANDSEED
5
FFFF
0
ENDSEC
0
SECTION
2
TABLES
0
TABLE
2
VPORT
5
8
100
AcDbSymbolTable
0
ENDTAB
0
TABLE
2
LTYPE
5
5
100
AcDbSymbolTable
0
LTYPE
5
14
100
AcDbSymbolTableRecord
100
AcDbLinetypeTableRecord
2
BYBLOCK
70
0
0
LTYPE
5
15
100
AcDbSymbolTableRecord
100
AcDbLinetypeTableRecord
2
BYLAYER
70
0
0
ENDTAB
0
TABLE
2
LAYER
5
2
100
AcDbSymbolTable
70
2
0
LAYER
5
50
100
AcDbSymbolTableRecord
100
AcDbLayerTableRecord
2
0
70
0
6
CONTINUOUS
0
ENDTAB
0
TABLE
2
STYLE
5
3
100
AcDbSymbolTable
70
1
0
STYLE
5
11
100
AcDbSymbolTableRecord
100
AcDbTextStyleTableRecord
2
STANDARD
70
0
0
ENDTAB
0
TABLE
2
VIEW
5
6
100
AcDbSymbolTable
70
0
0
ENDTAB
0
TABLE
2
UCS
5
7
100
AcDbSymbolTable
70
0
0
ENDTAB
0
TABLE
2
APPID
5
9
100
AcDbSymbolTable
70
2
0
APPID
5
12
100
AcDbSymbolTableRecord
100
AcDbRegAppTableRecord
2
ACAD
70
0
0
ENDTAB
0
TABLE
2
DIMSTYLE
5
A
100
AcDbSymbolTable
70
1
0
ENDTAB
0
TABLE
2
BLOCK_RECORD
5
1
100
AcDbSymbolTable
70
1
0
BLOCK_RECORD
5
1F
100
AcDbSymbolTableRecord
100
AcDbBlockTableRecord
2
*MODEL_SPACE
0
BLOCK_RECORD
5
1B
100
AcDbSymbolTableRecord
100
AcDbBlockTableRecord
2
*PAPER_SPACE
0
ENDTAB
0
ENDSEC
0
SECTION
2
BLOCKS
0
BLOCK
5
20
100
AcDbEntity
100
AcDbBlockBegin
2
*MODEL_SPACE
0
ENDBLK
5
21
100
AcDbEntity
100
AcDbBlockEnd
0
BLOCK
5
1C
100
AcDbEntity
100
AcDbBlockBegin
2
*PAPER_SPACE
0
ENDBLK
5
1D
100
AcDbEntity
100
AcDbBlockEnd
0
ENDSEC
0
SECTION
2
ENTITIES
0
LINE
5
100
100
AcDbEntity
8
0
100
AcDbLine
10
665.00000990927219
20
-76.500001139938846
30
0
11
665.00000990927219
21
-98.904048182338926
31
0
0
LINE
5
101
100
AcDbEntity
8
0
100
AcDbLine
10
-0.49997379379429857
20
-98.298099380142801
30
0
11
-0.49997379379436946
21
-76.352721753047277
31
0
0
ELLIPSE
5
102
100
AcDbEntity
8
0
100
AcDbEllipse
10
334.43731983155692
20
-103.92542316634704
30
0
11
106.51301755583634
21
5.0856283381258697e-17
31
0.0
40
0.18487292946317704
41
0
42
6.2831853071795862
0
LINE
5
103
100
AcDbEntity
8
0
100
AcDbLine
10
227.92430227572058
20
-103.92542316634704
30
0
11
440.95033738739335
21
-103.92542316634704
31
0
0
LINE
5
104
100
AcDbEntity
8
0
100
AcDbLine
10
334.43731983155692
20
-123.61679674785732
30
0
11
334.43731983155692
21
-84.234049584836782
31
0
0
LINE
5
105
100
AcDbEntity
8
0
100
AcDbLine
10
572.09814081416141
20
-76.352721753047348
30
0
11
665.00000990927219
21
-76.500001139938846
31
0
0
LINE
5
106
100
AcDbEntity
8
0
100
AcDbLine
10
-0.49997379379436946
20
-76.352721753047277
30
0
11
96.776498848952514
21
-76.352721753047348
31
0
0
LINE
5
107
100
AcDbEntity
8
0
100
AcDbLine
10
110.77633432315395
20
-76.420594393273703
30
0
11
558.09830533995989
21
-76.420594393273703
31
0
0
LINE
5
108
100
AcDbEntity
8
0
100
AcDbLine
10
96.776498848952514
20
-76.352721753047348
30
0
11
110.77633432315395
21
-76.420594393273703
31
0
0
LINE
5
109
100
AcDbEntity
8
0
100
AcDbLine
10
558.09830533995989
20
-76.420594393273703
30
0
11
572.09814081416141
21
-76.352721753047348
31
0
0
ELLIPSE
5
110
100
AcDbEntity
8
0
100
AcDbEllipse
10
332.64610772611513
20
-97.223613519430188
30
0
11
333.16169689194254
21
0.74630640420349559
31
0.0
40
0.10423513698086935
41
3.1510439799229593
42
6.2133006786829048
0
ENDSEC
0
SECTION
2
OBJECTS
0
DICTIONARY
5
C
100
AcDbDictionary
3
ACAD_GROUP
350
D
3
ACAD_MLINESTYLE
350
17
0
DICTIONARY
5
D
100
AcDbDictionary
0
DICTIONARY
5
1A
330
C
100
AcDbDictionary
0
DICTIONARY
5
17
100
AcDbDictionary
0
ENDSEC
0
EOF
